• NOTNA LITERATURA
  •  
    slika
     

GITARA ZA POCETNIKE

Gudački i trzalački instrumenti: violina, gitara, kontrabas, tamburica...
Avatar
Conic
Nema harmoniku
Postovi: 3
Učlanjen: 13 Jun 2012, 12:23

Re: GITARA ZA POCETNIKE

Post od Conic » 09 Okt 2012, 19:44

DzoksySp je napisao: E||--------------------------------------------------0----0----0--------------|
B||--1----0-------------1----0--------------------------------------3----1----|
G||------------2------------------2--------0----0-----------------------------|
D||---------------------------------------------------------------------------|
A||---------------------------------------------------------------------------|
E||---------------------------------------------------------------------------|

--------------------0----0----5----5----5----3---------------0--------------------
-------1--------3---------------------------------1--------3------3---------------
-----------------------------------------------------------------------2--------2-
--------------------------------------------------------------------------------
--------------------------------------------------------------------------------
--------------------------------------------------------------------------------
C-H-A-C-H-A-G-G-E-E-E-D-C
C-D-E-E-A-A-A-G-C-D-E-D-A-A

Nabavi program Guitar Pro i komplet od 20.000 tablatura za njega, program pokazuje klavijaturu, ovakvu shemu za gitaru i note.



Avatar
kocko
16 basova
16 basova
Postovi: 37
Učlanjen: 19 Maj 2012, 20:56
Lokacija: Prikomora

Re: GITARA ZA POCETNIKE

Post od kocko » 09 Okt 2012, 22:48

Ja bas razmisljam da nakon sta naucim svirat harmoniku i ako bude vremena jednog dana da naucim i gitaru.

Cure vole kad im zasviras na plazici :D

A sta se tice harmonike malo je glasna za romatnicnu vecer hahahaha :svirac:



Avatar
DzoksySp
120 basova
120 basova
Postovi: 142
Učlanjen: 03 Apr 2012, 18:30
Lokacija: Stara Pazova

Re: GITARA ZA POCETNIKE

Post od DzoksySp » 23 Okt 2012, 15:35

Hvala vam puno,malo kasnim :D



Odgovori